Sunday, April 10, 2005

Tab nr. 19 :: Asian Kung-Fu Generation - Haruka Kanata

Artist/Band: Asian Kung-Fu Generation
Album: Naruto OST

Requested by: ][EMINEM][

LYRICS:
"fumikomu ze akuserukake hiki wa nai sa sou da yoyoru wo nukerunejikomu sa saigo nisashihiki zero sa, sou da yohibi wo kezuru
kokoro wo sotto hiraitegyutto hiki yosetaratodoku yo kitto tsutau yo mottosaa
iki isoide shiboritottemotsureru ashi dakedo mae yorizutto sou, tooku eubaitotte tsukandattekimi ja nai naraimi wa nai no sa
dakara motto... haruka kanata
fumikomu ze akuserukake hiki wa nai sa sou da yoyoru wo nukerunejikomu sa saigo nisashihiki zero sa, sou da yohibi wo kezuru
kokoro wo sotto hiraitegyutto hiki yosetaratodoku yo kitto tsutau yo mottosaa
iki isoide shiboritottemotsureru ashi dakedo mae yorizutto sou, tooku eubaitotte tsukandattekimi ja nai naraimi wa nai no sa
dakara, aa, haruka kanata
itsuwaru koto ni nareta kimi no sekai womuritsubusu no sa, shiroku..."

TAB:

----------------------------------------------
----------------10-11-12---------------------
-99-99---------------------------------------
-99-99-11-9-7-2----------11-9-7-2------------
-77-77-11-9-7-2----------11-9-7-2------------
-------9--7-5-0----------9--7-5-0------------

---------------------------------------------
---------------------------------------------
-6-----9-9p8-8-8p6---------------------------
-6-6-7-9-9p8-8-8p6---------------------------
-4-6-7-7-7p6-6-6p4---------------------------
---4-5---------------------------------------
REPEAT UNTIL 2nd CHORD

---------------------------------------------
---------------------------------------------
---------------------------------------------
-7-6-----------------------------------------
-7-6-----------------------------------------
-5-4-----------------------------------------
REPEAT SOME TIMES

---------------------------------------------
---------------------------------------------
---------------------------------------------
---------------------------------------------
---------------------------------------------
-0-7-9-5-------------------------------------
x2

CHORUS:
---------------------------------------------
---------------------------------------------
-9-13----------------------------------------
-9-13-11-9-7---------------------------------
-7-11-11-9-7---------------------------------
------9--7-5---------------------------------
x2

THE REST OF THE SONG IS BASICALY THE SAME THING OVER AND OVER!

EnDTabbed by: Clover

Monday, February 21, 2005

Tab Nr. 18 :: Akira Yamaoka (Silent Hill 4) - Waiting For You (Live) (Requested by: N/A)

Artist: Akira Yamaoka
Album: Silent Hill 4 OST
Song: Waiting For You (Live)

Requested by: N/A

Opening solo
--------------------------------------9-------11-------14-13------------------
---------11----11-----------------------------------11------------------------
-8-10-11----13----11-10-8----8-10-11---10-11----11----------------------------
--------------------------11--------------------------------------------------
------------------------------------------------------------------------------
------------------------------------------------------------------------------

--------------------------------------9-------11-------14-13--14-13-----------
---------11----11----------------------------------11---------------14--14-16-
-8-10-11----13----11-10-8----8-10-11---10-11----11----------------------------
--------------------------11--------------------------------------------------
------------------------------------------------------------------------------
------------------------------------------------------------------------------

Pre-Chorus riff
--------------------------------
--------------------------------
-------------------------------- 4x
-"2-2--2"-2--"2--2--2"-2-2------
-"2-2--2"-2--"2--2--2"-2-2------
-"0-0--0"-0--"0"-0-"0"-0-0------

Chorus solo
------------------------------------------------------------------------------
--------------9----------------------11--14-14-14-11-11-11-9-9-9-11-11-11-----
---8-10-11-10---11-10-----------8-11------------------------------------------
-8--------------------11-11-8-11----------------------------------------------
------------------------------------------------------------------------------
------------------------------------------------------------------------------

------------------------------------------------------------------------------
-9-11-9---9-11-9---9-11-9---9-11-9--------9-11-18-16-14-16--------------------
--------8--------8--------8--------8-8-11-------------------------------------
------------------------------------------------------------------------------
------------------------------------------------------------------------------
------------------------------------------------------------------------------

-18-18-18-16-16-16-14-14-14-13-13-13-14-13------------------------------------
-------------------------------------------16---------------------------------
------------------------------------------------------------------------------
------------------------------------------------------------------------------
------------------------------------------------------------------------------
------------------------------------------------------------------------------

Last solo
-------------------------------------------------------------
-------------------------------------------9-----------------
-11-11-11-10-11-13------10---8---8-10-8----------------------
-------------------11-8----8---8--------8--------------------
-------------------------------------------------------------
-------------------------------------------------------------

-------------------------------------------------------------
----------------------------------------9--------------------
-11-11-11-10-11-13------10---8---8-10-8-----6----------------
-------------------11-8----8---8----------8------------------
-------------------------------------------------------------
-------------------------------------------------------------

-------------------------------------------------------------
--------------------16-16-19-19-18-19-18---------------------
---8-10-11-13-15-18------------------------------------------
-8-----------------------------------------------------------
-------------------------------------------------------------
-------------------------------------------------------------

----14-16-14-----14-16-14-----14-16-14-----14-16-14----------
-16----------16-----------16-----------16-----------16-------
-------------------------------------------------------------
-------------------------------------------------------------
-------------------------------------------------------------
-------------------------------------------------------------

----14-16-18-16-18-16-14-13-14-13-11-------------------------
-16----------------------------------------------------------
-------------------------------------------------------------
-------------------------------------------------------------
-------------------------------------------------------------
-------------------------------------------------------------

Hope it's useful!

Tab Nr. 17 :: Akira Yamaoka (Silent Hill 2) - True (Guitar Adaptation) (Requested by: N/A)

Artist: Akira Yamaoka
Album: Silent Hill 2 OST
Song: True (Guitar Adaptation)

Requested by: N/A

Intro
Guitar 1
--------------------------------------------
--------3--4------------------3--6----------
-----5---------------------5----------------
--------------------------------------------
--3---------------------3-------------------
--------------------------------------------

Guitar 2
--------------------------------------------13----------
--------13----15----16----13----15----16----------15----
--12-------12----12----12----12----12----12----12----12-
--------------------------------------------------------
--------------------------------------------------------
--------------------------------------------------------

--------------------------------------------------
--16----13----15----------13----------------------
-----13----13----13-15-13----12-13----12----15----
-----------------------------------15----13----13-
--------------------------------------------------
--------------------------------------------------

--15----15----15----15----15----15----15----15----
--15----15----15----15----15----15----15----15----
-----15----15----15----15----15----15----15----15-
--------------------------------------------------
--------------------------------------------------
--------------------------------------------------

--15----15----15----15----15----15----15----15----
--13----13----13----13----13----13----13----13----
-----13----13----13----13----13----13----13----15-
--------------------------------------------------
--------------------------------------------------
--------------------------------------------------

Guitar 3
----------------------------------------------------------------------
----------------------------------------------------------------------
----------------------------------------------------------------------
----------------12--10------------------12------10---------------12---
------------10----------------------10----------------------10--------
----------------------------------------------------------------------

--------------------------------------------------------------------------
--------------------------------------------------------------------------
--------------------------------------------------------------------------
--10--------------12-13----15-----13-12-10------------10----12--10--------
----------------------------------------------13---------10---------------
--------------------------------------------------------------------------

Tab Nr. 16 :: Akira Yamaoka (Silent Hill) - Tears Of... (Requested by: N/A)

Artist: Akira Yamaoka
Album: Silent Hill OST
Song: Tears Of...

Requested by: N/A

---------------------------------------------------
--------------------------------------1------------
*-------0----3-------------------0-----------------
*--------------------------------------------------
---------------------------------------------------
---3------------------------3----------------------

---------------------------------------------------
---------------------------------------------------
------------2------------------------2------------*
-------3------------------------4-----------------*
---------------------------------------------------
--3------------------------3-----------------------

----------------------------------------------------------------------------
--------------------------------------1-------------------------------------
*-------0----3-------------------0-----------------------------2------------
*---------------------------------------------------------3-----------------
----------------------------------------------------------------------------
---3------------------------3------------------------3----------------------

---------------------------------------------------------------------------
-----------------------------1-------1--------------1-----------1----------
------------2------------**-------0-------0------------0-----0-------0-----
-------4-----------------**------------------1------------1-------------1--
---------------------------------------------------------------------------
--3------------------------------------------------------------------------

--------------------------------------------------------------------------
-----------1---------------1-----------1----------------------------------
--3-------------------3-------------3---------------------3----------3----
-----0----------0----------------0---------------------1----------1-------
--1-----1----------1----------1-------------1-------1----------1----------
-----------------------------------------------1--------------------------

--------------------1-----------------------------
--------------------------------------------------
--------3---------------------------2-------------
--1-----------1--1--------------------------------
-----1-----1--------------------------------------
---------------------------1--1--1-------1--1--1--

-------------------------------
-------------------------------
--2----------------2----------*
----------------3-----3-------*
-------------0-----------------
-------1--1--------------1-----

Tab Nr. 15 :: Akira Yamaoka (Silent Hill) - Silent Hill (Requested by: N/A)

Artist: Akira Yamaoka
Album: Silent Hill OST
Song: Silent Hill

Requested by: N/A

Intro
Guitar 1
--12--11--10--11------12--11--10--11------13--15--------------12--11--
---/---/---/---/--10---/---/---/---/--10---/---/--15--13--15---/---/--
---/---/---/---/---/---/---/---/---/---/---/---/---/---/---/---/---/--
-------------------/-------------------/-----------/---/---/----------
----------------------------------------------------------------------
----------------------------------------------------------------------

Guitar 2
------------0---------------------------------0--------------1----------------0---------
-----------------------------3----------------------------------------------------------
-------2---------2----------------2----------------2----------------2--------------2----
--2---------------------2--------------2----------------2----------------2--------------
----------------------------------------------------------------------------------------
----------------------------------------------------------------------------------------

------------0---------------------------------0--------------1----------------0---------
-----------------------------3----------------------------------------------------------
-------2---------2----------------2----------------2----------------2--------------2----
--2---------------------2--------------2----------------2----------------2--------------
----------------------------------------------------------------------------------------
----------------------------------------------------------------------------------------

------------0--------------------------0----------------------------1---------0---------
------------------------3---------------------------------------------------------------
-------2---------------------2----------------2--------------2---------------------2----
--3--------------3----------------3----------------3----3----------------3--------------
----------------------------------------------------------------------------------------
----------------------------------------------------------------------------------------
------------0----------------0----------------------------------------------------------
----------------------------------------------4--------------4----------------4---------
-------2---------2----------------2----------------2----------------2-------------------
--2---------------------1--------------1----------------1----------------1---------1----
----------------------------------------------------------------------------------------
----------------------------------------------------------------------------------------


Guitar 1
----------------------------------------------<12>---------------------------------------
------------------------------------------<12>-------------------------------------------
--------------------------------------------------------------------------------------7--
--5---------------------5--5/7--5--4------------------5-----------------5--5/7--5--4-----
--------------------------------------5--------------------------------------------------
-----------------------------------------------------------------------------------------

Guitar 2
--------------12--14----15--17----19----19----19----17------15------14--------12--------------
----------------------------------------------------------------------------------------------
----------------------------------------------------------------------------------------------
----------------------------------------------------------------------------------------------
----------------------------------------------------------------------------------------------
----------------------------------------------------------------------------------------------

--------------10--12----14--15----15----12----10------------------------14------15------14--
--------------------------------------------------------------------------------------------
--------------------------------------------------------------------------------------------
--------------------------------------------------------------------------------------------
--------------------------------------------------------------------------------------------
--------------------------------------------------------------------------------------------

--------------12--------15------17--------------------------------12--14--15----14--------12------10--------
------------------------------------------------------------------------------------------------------------
------------------------------------------------------------------------------------------------------------
------------------------------------------------------------------------------------------------------------
------------------------------------------------------------------------------------------------------------
------------------------------------------------------------------------------------------------------------

------12------14--------15------14------12----------------------
----------------------------------------------------------------
----------------------------------------------------------------
----------------------------------------------------------------
----------------------------------------------------------------
----------------------------------------------------------------

Guitar 3 (Acoustic)
------------2----------------2----2---------------------2---------------------2---------
----------------------------------------------------------------------------------------
-------0---------0---------------------------------0---------0-----------0--------------
--2---------------------2--------------2------2---------------------2--------------2----
----------------------------------------------------------------------------------------
----------------------------------------------------------------------------------------

------------2----------------2----2---------------------2----------------2---------2----
----------------------------------------------------------------------------------------
-------0---------0---------------------------------0---------0--------------------------
--0---------------------0--------------0------0---------------------0---------0---------
----------------------------------------------------------------------------------------
----------------------------------------------------------------------------------------


Guitar 1
--12--10--12--15--12--10--12------------12--10--12--15--12-------------
---\---\---\---\---\---\---\--12----10---\---\---\---\---\--12--13--12-
---\---\---\---\---\---\---\---\-----\---\---\---\---\---\---\---\--\--
-------------------------------\-----\-----------------------\---\--\--
-----------------------------------------------------------------------
-----------------------------------------------------------------------


Guitar 1
----------------------------------------------------------------------------------------
------------3---------------------3---------------------3---------------------3---------
-------2---------2-----------3---------3-----------4---------4-----------3---------3----
--0---------------------0---------------------0---------------------0-------------------
----------------------------------------------------------------------------------------
----------------------------------------------------------------------------------------

Guitar 2
----------------------------------------------------------------------------------------
----------------------------------------------------------------------------------------
-------2---------------------3---------------------4---------------------3--------------
--0---------------------0---------------------0---------------------0-------------------
----------------------------------------------------------------------------------------
----------------------------------------------------------------------------------------


Guitar 1
--13--12--13--12--10--12----------12--10--------13--17--15--13----------12--10--
---\---\---\---\---\---\--13--10---\---\----10---\---\---\---\--13--10---\---\--
---\---\---\---\---\---\---\---\---\---\-----\---\---\---\---\---\---\---\---\--
---------------------------\---\-------------\-------------------\---\----------
--------------------------------------------------------------------------------
--------------------------------------------------------------------------------

Tab Nr. 14 :: Akira Yamaoka (Silent Hill) - She (Requested by: N/A)

Artist: Akira Yamaoka
Album: Silent Hill OST
Song: She

Requested by: N/A

-------------------------------------------------------
--------------------------0-------------------0--------
-----------------------4-----4-------------4-----4-----
----------0---------2-----------2-------2-----------2--
-----------------0-------------------0-----------------
-------------------------------------------------------

------------------------------------------------------------
-----------0-------------------0-------------------0--------
--------5-----5-------------5-----5-------------7-----7-----
-----2-----------2-------2-----------2-------7-----------7--
--3-------------------3-------------------5-----------------
------------------------------------------------------------

---------------------------------------------------------------------
-----------0-------------------0-------------------0-----------------
--------7-----7-------------9-----9-------------9-----9-------9------
-----7-----------7-------7-----------7-------7-----------7----7------
--5-------------------7-------------------7-------------------7------
---------------------------------------------------------------------


-----------0-------------------0-------------------0--------
--------1-----1-------------1-----1-------------1-----1-----
-----2-----------2-------2-----------2-------2-----------2--
------------------------------------------------------------
--0-------------------0-------------------0-----------------
------------------------------------------------------------

-----------0-------------------1----------3--------1--------
--------1-----1-------------3-----3----------3--------3-----
-----2-----------2-------2-----------2----------2--------2--
------------------------------------------------------------
--0-------------------0-------------------------------------
------------------------------------------------------------

Guitar 2
--------------------------------------------------------------
--------------------------------------------------------------
------7b---------7b---5---------------------------------------
-------------------------7------------------------------5h-7--
--------------------------------------------------------------
--------------------------------------------------------------

-----------------------------------------------------------------
-------------------------------------------------------------13--
--5--------------------------------------------------12b---------
-----7---5-7-7/--------------------------------------------------
-----------------------------------------------------------------
-----------------------------------------------------------------

----------------------------------------------
----------------------------------------------
--12b-------7------9~-------------------------
----------------------------------------------
----------------------------------------------
----------------------------------------------

Guitar 1
-----------0-------------------0-----0----0-----0-----------
-----------0-------------------0----------0-----0-----------
--------1-----1-------------1-----1----------1-----1-----1--
-----2-----------2-------2----------------------------2-----
------------------------------------------------------------
--0-------------------0-------------------------------------

--0----------------------------0-------------------0--------
-----0-----0-----0----------1-----1-------------1-----1-----
--------1-----1----------2-----------2-------2-----------2--
------------------------------------------------------------
----------------------0-------------------0-----------------
------------------------------------------------------------


-----------0-------------------0-------------------1--1--1--
--------1-----1-------------1-----1-------------3--3--3--3--
-----2-----------2-------2-----------2-------2--------------
------------------------------------------------------------
--0-------------------0-------------------0-----------------
------------------------------------------------------------

--3--3--3--1--1--1-------------0-------------------0--------
--3--3--3--3--3--3----------1-----1-------------1-----1-----
-------------------------2-----------2-------2-----------2--
------------------------------------------------------------
----------------------0-------------------0-----------------
------------------------------------------------------------

Guitar2
----------15b-----12------------------
----------------------15--13--15b-----
--------------------------------------
--------------------------------------
--------------------------------------
--------------------------------------

-----------------------------------------------
-----------------------------------------------
-------------5----7--7b-----------5------------
----------7------------------------------------
-----------------------------------------------
-----------------------------------------------

Guitar 1
-----------0-------------------0-----0--
-----------0-------------------0--------
--------1-----1-------------1-----1-----
-----2-----------2-------2--------------
----------------------------------------
--0-------------------0-----------------


Guitar 2
-------------------------------------------------------------------------
-----8--------8-------8--8--8--8--8--8-----------------------------------
--7b----7b-7b----7b---7b-7b-7b-7b-7--7----5--------------7------5--4--5--
-------------------------------------------------------------------------
-------------------------------------------------------------------------
-------------------------------------------------------------------------

Guitar 1
--0--0--0--0--0--0----0--0--0--0--0--0--
--0--0--0--0--0--0----0--0--0--0--0--0--
--1--1--1--1--1--1----1--1--1--1--1-----
--2--2--2--2--2--2----2--2--2--2--2-----
----------------------------------------
----------------------------------------

Guitar 1
--------------------------------------------------------------------0-----------
--1--1--1--1--1--1----3--3--3--3--3--3----0--0--0--0--0--0----1-----1--1--1--0--
--2--2--2--2--2--2----4--4--4--4--4--4----2--2--2--2--2--2----2-----2-----2--2--
--3--3--3--3--3--3----5--5--5--5--5--5----2--2--2--2--2--2----2--2--------2--2--
------------------------------------------0--0--0--0--0--0----0--0--------0--0--
--------------------------------------------------------------------------------

Guitar 2
---------------------------------
---------------------------------
--5--------------7------5--4--5--
---------------------------------
---------------------------------
---------------------------------

-----------------------------------------------------------------
-----------------------------------------------------------------
--4--------5-4-2----------2/------------------5----7--7b---------
-------------------------------------------7---------------------
-----------------------------------------------------------------
-----------------------------------------------------------------

--------------------------------------------------------------------
---------------------------------------------8b-----5---------------
----7b---7b---7b-----5---5-----------------------------7--5--7b-----
-----------------------7---7----------------------------------------
--------------------------------------------------------------------
--------------------------------------------------------------------

-------------------------------------------------------------
-------------------------------------------------------------
----7----5h---2------------------5--------------------7------
-------------------------------------------------------------
-------------------------------------------------------------
-------------------------------------------------------------


Guitar 1
-----------0-----0------------------------------------------0--------
-----------0----------0----------------------------------1-----1-----
--------1-----1-------1-------------------------------2-----------2--
-----2----------------2----------------------------------------------
---------------------------------------------------0-----------------
--0-------------------0----------------------------------------------

Guitar 2
--12------12--12--12----12--------------12--12--12--12--12------------------
--15b-----15b-15b-15b---15b-------------15b-15b-15b-15b-15b-----------------
----------------------------------------------------------------------------
----------------------------------------------------------------------------
----------------------------------------------------------------------------
----------------------------------------------------------------------------

----------------------------------------------------------------
--------13----13----13-----15------15----15-----15-----13----13-
----14-----14----14----14-------14----14----14-----14-----14----
----------------------------------------------------------------
----------------------------------------------------------------
----------------------------------------------------------------

------------------------------------------------15b-----12------------------
--------------13--------------------------------------------15--13--15b-----
--14--14--14-----14---------------------------------------------------------
----------------------------------------------------------------------------
----------------------------------------------------------------------------
----------------------------------------------------------------------------

----------------------------------------------------------------
--15b---15b---13----13--------------------------------13--------
-----------------14----14---------12--14--14b-------------14b---
----------------------------------------------------------------
----------------------------------------------------------------
----------------------------------------------------------------

------------------------------------------------------------
----------------13--------15------15------------------------
--------12--14--------14------14------14--14----------------
------------------------------------------------------------
------------------------------------------------------------
------------------------------------------------------------

Tab Nr. 13 :: Akira Yamaoka (Silent Hill 2) - Promise (Reprise) (Guitar Adaptation) (Requested by: N/A)

Artist: Akira Yamaoka
Album: Silent Hill 2 OST
Song: Promise (Reprise) (Guitar Adaptation)

Requested by: N/A

-------------10---------------------10---------------------8---------------------8---------
--------8----------8-----------8----------8-----------8---------8-----------8---------8----
-------------------------------------------------------------------------------------------
-------------------------------------------------------------------------------------------
--10----------------------6----------------------7---------------------6-------------------
-------------------------------------------------------------------------------------------


------------------10----------------------------------
------10--11--13------13--11--10----------------------
--12--------------------------------12----------------
------------------------------------------------------
------------------------------------------------------
------------------------------------------------------

------------------------------------------------------------
--10--11--13----11----10--------11--10----------10----------
--------------------------12------------12--10--------12----
------------------------------------------------------------
------------------------------------------------------------
------------------------------------------------------------

Tab Nr. 12 :: Akira Yamaoka (Silent Hill 3) - Please Love Me... Once More (Requested by: N/A)

Artist: Akira Yamaoka
Album: Silent Hill 3 OST
Song: Please Love Me... Once More

Requested by: N/A

Another easy and cool one!

--------0----------------------0--2--0----------
-------------4----2---------------------4--2----
------------------------------------------------
-----2----------------------2-------------------
--4----------------------4----------------------
------------------------------------------------

--------2----0----2------------2--4--0----------
----------------------------------------4--2----
------------------------------------------------
-----4----------------------4-------------------
--4----------------------4----------------------
------------------------------------------------

Tab Nr. 11 :: Akira Yamaoka (Silent Hill 2) - Overdose Delusion (Requested by: N/A)

Artist: Akira Yamaoka
Album: Silent Hill 2 OST
Song: Overdose Delusion

Requested by: N/A

Guitar 1
------------------------------------------------------------
------------------------------------------------------------
-----------2--------------2--------------2---------------2--
--------2-------5--------------5--------------5-2h-4h-5-----
-----2------------------------------------------------------
--0------------------0--------------0-----------------------

Guitar 2
---------------------------------------------------------------------------
--------8----------10------------8----------10------------8----------------
-----9-------9-------------9----------9-------------9----------------------
--9-------------9-------------9----------9-------------9-------------------
---------------------------------------------------------------------------
---------------------------------------------------------------------------

----------------------------------------------
----------------------------------------------
-----7-------9--9/-11-------------------------
--9-----9--------------12----9----------------
----------------------------------------------
----------------------------------------------

-------------------------------------------
-------------------------------------------
-----7-------9--11--11/12--11--(11)-/-7----
--9-----9----------------------------------
-------------------------------------------
-------------------------------------------

-----------------------------------------------------14--15--14----------------------
-----8-----10--10--10/-12--------15--15/-17----17b-----------------15----15-15-/-17--
--9-----9------------------12--------------------------------------------------------
-------------------------------------------------------------------------------------
-------------------------------------------------------------------------------------
-------------------------------------------------------------------------------------

--------------------------
--------------------------
-----------------3b-3b3b3b
-----------------2--2-2-2-
--------------------------
--0--0--0--0--0-----------

-----------------------------
-----------------------------
-----------------------3b-4--
-----------------------2--2--
--4--4/3--3-3-3-2--2-2-------
--2--2/1--1-1-1-0--0-0-------

----------------------------------------------------------------
----------------------------------------------------------------
----------------------------------------------------------------
------------5--------------------4---------------4---------2----
-------2--------------------2-------------------------2---------
--0--------------------0--------------------0-------------------

Tab Nr. 10 :: Akira Yamaoka (Silent Hill) - Not Tommorow (Extended Version) (Requested by: N/A)

Artist: Akira Yamaoka
Album: Silent Hill OST
Song: Not Tommorow (Extended Version)

Requested by: N/A

----------------------------------------------------
--------3-----------3-------------3-----------3-----
-----3-----3-----3-----3-------3-----3-----2-----3--
--5-----------3-------------1-----------0-----------
----------------------------------------------------
----------------------------------------------------

----------------------------------------------------
--------3-----------3-------------3-----------3-----
-----3-----3-----3-----3-------3-----3-----2-----3--
--5-----------3-------------1-----------0-----------
----------------------------------------------------
----------------------------------------------------

----------------------------------------------------
--------3-----------3-------------3-----------3-----
-----3-----3-----3-----3-------3-----3-----2-----3--
--5-----------3-------------1-----------0-----------
----------------------------------------------------
----------------------------------------------------

----------------------------------------------------
--------------3-------------3--------3--------------
--------------5--3--0--3-------3--0-----3--0--2--0--
-----3--0--3----------------1-----------------------
--1-----------3-------------------------------------
----------------------------------------------------

----------------------------------------------------
--------------3-------------3--------3--------------
--------------5--3--0--3-------3--0-----3--0--2--0--
-----3--0--3----------------1-----------------------
--1-----------3-------------------------------------
----------------------------------------------------

-----------------------------------------------------------------------------
--------------3-------------3--------3---------------------------3-----------
--------------5--3--0--3-------3--0-----3--0----0----------------5--3--0--3--
-----3--0--3----------------1---------------------------3--0--3--------------
--1-----------3--------------------------------------1-----------3-----------
-----------------------------------------------------------------------------

-----------------------------------------------------------------------------
--3--------3----------------------------3----------------------3-------------
-----3--0-----3--0--2--0----------------5--3--0--3-------3--0-----3--0--2----
--1----------------------------3--0--3----------------1----------------------
----------------------------1-----------3------------------------------------
-----------------------------------------------------------------------------

Tab Nr. 9 :: Akira Yamaoka (Silent Hill 2) - Love Psalm (Requested by: N/A)

Artist: Akira Yamaoka
Album: Silent Hill 2 OST
Song: Love Psalm

Requested by: N/A

Intro
Guitar 1
-----------0--------------------------------0------------0----------
--------0---------------8--------6--------------------0-------------
-----5---------------------5----------5------------5----------------
--7---------------------------7----------7------7-------------------
--------------------------------------------------------------------
--------------------------------------------------------------------


-----------0--------------------------------7-----------------------
--------0---------------8--------6-----------------5-----------5----
-----5---------------------5----------5---------------------5-------
--7---------------------------7----------7--------------------------
--------------------------------------------------------------------
--------------------------------------------------------------------


Guitar 2
----------------------------------------------------------------------------
---------------------------------------------12-----------12--13--12--8-----
-------------------7----7/-9------12------9------------9-----------------9--
------------9--10-------------10--------------------------------------------
----------------------------------------------------------------------------
----------------------------------------------------------------------------

------------------------------------------------------------------------------------------------------
---------------------------------------------12-----------12--13--12--13--13/---15----------------15--
-------------------7----7/-9------12------9------------9--------------------------------12------------
------------9--10-------------10----------------------------------------------------------------------
------------------------------------------------------------------------------------------------------
------------------------------------------------------------------------------------------------------

------------------------------
----------15--15--15--15--15--
----12----12--12--12--12--12--
------------------------------
------------------------------
------------------------------

Guitar 1
-----------------------
--------1--1--1--1--1--
--------2--2--2--2--2--
--------2--2--2--2--2--
--------0--0--0--0--0--
-----------------------

Chorus
Guitar 1
-------------------------------------------------
-------------------------------------------------
--2----2--2--2--2----2------2--2--2/-4--4--4/-2--
--3----3--3--3--3----3------3--3--3/-5--5--5/-3--
--3----3--3--3--3----3------3--3--3/-5--5--5/-3--
--1----1--1--1--1----1------1--1--1/-3--3--3/-1--

Guitar 2
----------------------------------------------------------------10/-12----------------------------
--10----------12----13------12----15----13--12--10----------------------10----------8-------8-----
-----------------------------------------------------------------------------------------9-----9--
--------------------------------------------------------------------------------------------------
--------------------------------------------------------------------------------------------------
--------------------------------------------------------------------------------------------------

--------------------------------------------------------------------------
--8/-10--------12----13------12----15----13--12--10----------------10/-8--
--------------------------------------------------------------------------
--------------------------------------------------------------------------
--------------------------------------------------------------------------
--------i-----------------------------------------------------------------

-----------------------------------------------------------
--8--------8/-6--6------5----------------------------------
-----------------------------------------------------------
-----------------------------------------------------------
-----------------------------------------------------------
-----------------------------------------------------------

Fill
-----------------------------------------------------------------------------
-----------------------------------------------------------------------------
----------------5--7----7b-5----5--------------------------------------------
-----------5/7---------------7----7--7p5----5-----------5--------------------
-----------------------------------------7-----7----5h7------7-5--0-----3/-5-
---------------------------------------------------------------------3-------

Verse
Guitar 2
----------------------------------------------------------------------------
---------------------------------------------12-----------12--13--12--8-----
-------------------7----7/-9------12------9------------9-----------------9--
------------9--10-------------10--------------------------------------------
----------------------------------------------------------------------------
----------------------------------------------------------------------------

---15b-15-12-------------
-------------15-12-------
-------------------------
-------------------------
-------------------------
-------------------------

-------------------------------------------
---------------------------------------12--
-------------7----7/-9------12------9------
------9--10-------------10-----------------
-------------------------------------------
-------------------------------------------

-----------------------------------------------------------------------------
---------12--13--12--13--13----15----------------15------------15------------
------9--------------------------------12----------------12----------12------
-----------------------------------------------------------------------------
-----------------------------------------------------------------------------
-----------------------------------------------------------------------------


Chorus
Guitar 1
-------------------------------------------------
-------------------------------------------------
--2----2--2--2--2----2------2--2--2/-4--4--4/-2--
--3----3--3--3--3----3------3--3--3/-5--5--5/-3--
--3----3--3--3--3----3------3--3--3/-5--5--5/-3--
--1----1--1--1--1----1------1--1--1/-3--3--3/-1--

Guitar 2
----------------------------------------------------------------10/-12----------------------------
--10----------12----13------12----15----13--12--10----------------------10----------8-------8-----
-----------------------------------------------------------------------------------------9-----9--
--------------------------------------------------------------------------------------------------
--------------------------------------------------------------------------------------------------
--------------------------------------------------------------------------------------------------

--------------------------------------------------------------------------
--8/-10--------12----13------12----15----13--12--10----------------10/-8--
--------------------------------------------------------------------------
--------------------------------------------------------------------------
--------------------------------------------------------------------------
--------i-----------------------------------------------------------------

-----------------------------------------------------------
--8--------8/-6--6------5----------------------------------
-----------------------------------------------------------
-----------------------------------------------------------
-----------------------------------------------------------
-----------------------------------------------------------

Guitar 2
------------------------------------------------------------
--12--13--12----------13--13----13--15--17--12------12--12--
--------------14--------------------------------------------
------------------------------------------------------------
------------------------------------------------------------
------------------------------------------------------------

------------------------------------------------------
--12--15--13----------13--13----13--15--17--12--------
--------------14--------------------------------------
------------------------------------------------------
------------------------------------------------------
------------------------------------------------------

Solo
----------------------------
--------12h13---12---13p12--
----------------------------
----------------------------
----------------------------
----------------------------

----------------------------------------------------------------------------
----------------------------------------------------------------------------
--12-14---------------------------------------------------------------------
---------15-14-12----12-12/10-------10-12-------------------10-12-12b-12----
------------------15----------10-12-------12/-----------12---------------12-
----------------------------------------------------------------------------

--------------------------------------------------------------
--------------------------------------------------------------
----------------------------------------------12-14-14b-12----
--12--12b-----------15-14---12-14-------12/14--------------14-
--------------------------------------------------------------
--------------------------------------------------------------

--------------------------------------------------------------
--------------------------------------15b-----13b---------13--
--12-----------------------12---14------------------12--------
------12-14-12--------14--------------------------------------
---------------14-12/-----------------------------------------
--------------------------------------------------------------

---------------------------------------------------------------
---12---13---13/15---13---12h13p12---------------------18b-----
-------------------------------------14------12----12----------
------------------------------------------------14-------------
---------------------------------------------------------------
---------------------------------------------------------------

----------------------------------------------------------------------
----18-17-20-17-------------------------------------------------------
----------------19-17-16------------------------------------12-----14-
-------------------------19-17--17------------------12--14------14-14-
-----------------------------------19-17/-----------------------------
----------------------------------------------------------------------
------12-x-x-12/-------------------------------------------
------13-x-x-13/------------13--12-----------------13p12---
---14-14-x-x-14/---12--14------------14~-------------------
-----------------------------------------------------------
-----------------------------------------------------------
-----------------------------------------------------------

------------------------------------------------15h17---15----13h15-
--------------------------------------------------------------------
----12/14------12---------------------------------------------------
------------14----14-12-------12------------------------------------
------------------------15-12----15-12/-----------------------------
--------------------------------------------------------------------

----13------------------------------------------------------------
----------13/-15----15/-17----------------------------------------
------------------------------14~---------------------------------
------------------------------------------------------------------
------------------------------------------------------------------
------------------------------------------------------------------

Tab Nr. 8 :: Akira Yamaoka (Silent Hill 3) - I Want Love (Studio MIX) (Requested by: N/A)

Artist: Akira Yamaoka
Album: Silent Hill 3 OST
Song: I Want Love (Sudio MIX)

Requested by: N/A

Intro and Verse
Guitar 1
-------------------
--0----------------
--5----------------
--7----------------
--0----------------
-------------------

Guitar 2
-----------0----------------------------------10-----------
--------------0-----------0-------------8---------8--------
-----------------5-----5-----5-------7-----7---------7-----
--------------------7-------------9---------------------9--
--0--------------------------------------------------------
-----------------------------------------------------------

--------------8-----------------------------------
--------6--------6----------------5-----0----0----
-----5-----5--------5----------4-----4--2----4----
--7--------------------7----5-----------3----5----
--------------------------------------------------
--------------------------------------------------

Pre-Chorus
Guitar 1
-------------------------------------------------
-------------------------------------------------
--1--1--1--1--1--1--1--2----2--2--2--2--2--2--2--
--2--2--2--2--2--2--2--3----3--3--3--3--3--3--3--
--2--2--2--2--2--2--2--3----3--3--3--3--3--3--3--
--0--0--0--0--0--0--0--1----1--1--1--1--1--1--1--

Guitar 2
----------------------------------------------
-------8---------------------8---------10-----
--9---------9-----------9---------9-----------
----------------------------------------------
----------------------------------------------
----------------------------------------------

Chorus
----------------------------------------------------
----------------------------------------------------
--5--5--5--4--4--4--4--4----2--2--2--4--4--4--4--4--
--7--7--7--5--5--5--5--5----3--3--3--5--5--5--5--5--
--7--7--7--5--5--5--5--5----3--3--3--5--5--5--5--5--
--5--5--5--3--3--3--3--3----1--1--1--3--3--3--3--3--

Solo (Effect: Wah Wah)
---------------------------------------------------
-------5-------------------------------------------
--x------5h7-5p4---7b~-------7b-5-----5------------
--x--------------7-----------------7-----7--5--7---
---------------------------------------------------
---------------------------------------------------

--------------------------------------------------------
--------------------------------------------------------
--------------------------------------------------------
--5---------------5-------------------------------------
----7--0--7--5--7-----7--0----5/-7--7-7--------------5--
-----------------------------------------3--5--7--8-----

----------------------------------------------------------------------------
--------------------------------------------------------8-------------------
-----------5-----------5---------------5-----5--7----7b------5h-7p-5h-7p-5--
-----5--7-----7--5h-7-------7----5h-7-----7---------------------------------
--7-------------------------------------------------------------------------
----------------------------------------------------------------------------

-----------------------------8--8--7--------------------
-----------------5--8--10-------------10-----10-----10--
--------4--5--7---------------------------9------9------
--5--7--------------------------------------------------
--------------------------------------------------------
--------------------------------------------------------

-----------------------------------------------------
-----10--12--13--12--13--12--13/---15/-10-----10-----
--9----------------------------------------9------9--
-----------------------------------------------------
-----------------------------------------------------
-----------------------------------------------------


----------------------------------------------------------------
------------5---------------5--------------------------0--------
-------5---------------4---------4----------------2-------------
--7--------------------5--------------5------3------------------
----------------------------------------------------------------
----------------------------------------------------------------

----------------------
------------5---------
-------4---------4----
--5-------------------
----------------------
----------------------

Outro
----------------------------------------------------
----------------------------------------------------
----------------------------------------------------
--3--3--3--3--3--3--3--3----5--5--5--5--5--5--5--5--
--3--3--3--3--3--3--3--3----5--5--5--5--5--5--5--5--
--1--1--1--1--1--1--1--1----3--3--3--3--3--3--3--3--

Tab Nr. 7 :: Akira Yamaoka (Silent Hill 3) - End of Small Sanctuary (Requested by: N/A)

Artist: Akira Yamaoka
Album: Silent Hill 3 OST
Song: End of Small Sanctuary

Requested by: N/A

This song is really easy and fun to play! Have fun learning too! (it's one of my favorites to play!)

Guitar 1
------------------------------------------------------------------
--0----0----3----0------0----0----3----0------0----0----3----0----
--0----0----0----0------0----0----0----0------0----0----0----0----
--2----2----2----2------2----2----2----2------2----2----2----2----
--3----3----3----3------3----3----3----3------3----3----3----3----
------------------------------------------------------------------

This goes until the end:
----------------------
--0----0----3----0----
--0----0----0----0----
--2----2----2----2----
--3----3----3----3----
----------------------

Guitar 2
----0-----0-----0-----0----------------------------12-------------------
------3-----3-----3-----3-------1212------------------12----------------
--2-----2-----2-----2----------------1212----------------------12-12----
------------------------------------------------------------------------
------------------------------------------------------------------------
------------------------------------------------------------------------

Guitar 3
------------------------------------------------------------------------
---------------------------------3---------3----------------------------
-----------------------------------0---------0--------------------------
-------------------------------2-----2---2-----2------------------------
-----------------------------3---------3--------------------------------
------------------------------------------------------------------------

Tab Nr. 6 :: Akira Yamaoka (Silent Hill 2) - Dog Ending (Guitar Adaptation) (Requested by: N/A)

Artist: Akira Yamaoka
Album: Silent Hill 2 OST
Song: Dog Ending (Guitar Adaptation)

Requested by: N/A

Intro
------------------------------------------------------------
-----10-----10-----10-----10-------10-----10-----10-----10--
-----10-----10-----10-----10-------10-----10-----9------10--
------------------------------------------------------------
--8------8------8------8--------8------8------8------8------
------------------------------------------------------------

-------------------------------------------------------
-----10-----10-----10-----10-------10-----10-----------
-----7------7------7------7--------10-----10-----------
-------------------------------------------------------
--------------------------------8------8------8--------
--8------8------8------8-------------------------------

Verse
----------------------------------------------------------
----------------------------------------------------------
----------------------------------------------------------
--10--10--10--------------------12--12--12--12--10--------
----------------12--12--12--------------------------------
----------------------------------------------------------

-------------------------------------------------------------
-------------------------------------------------------------
------------------------------------10--10--10--9--10--------
--12--12--12--12--10--10--10--10-----------------------------
-------------------------------------------------------------
-------------------------------------------------------------

Chorus
----------------------------------------8--------
--8--9--11----11--9--8------9--9--9--9-----------
-------------------------------------------------
-------------------------------------------------
-------------------------------------------------
-------------------------------------------------

----------------------------------------10-------
--8--9--11----11--9--8------9--9--9--9-----------
-------------------------------------------------
-------------------------------------------------
-------------------------------------------------
-------------------------------------------------

--------------------------------------------------------
--11----------11--13----------11----------11--13--------
--------10--------------------------10------------------
--------------------------------------------------------
--------------------------------------------------------
--------------------------------------------------------

Tab Nr. 5 :: Akira Yamaoka (Silent Hill 2) - Angel's Thanatos (Requested by: N/A)

Artist: Akira Yamaoka
Album: Silent Hill 2 OST
Song: Angel's Thanatos

Requested: N/A

--------------------------------------------------------
--------------------------------------------------------
--------------------------------------------------------
--------------------------------------------------------
--x-----------------x---------x-----------------x-------
--x--3--3--3--3-----x--(3)----x--3--3--3--3-----x--(3)--
--x--1--1--1--1p-0--x---------x--1--1--1--1p-0--x-------

-----------------------
-----------------------
-----------------------
-----------------------
-----------------------
--2----2--2--2----2----
--0----0--0--0----0----

-------------------------
-------------------------
-------------------------
-------------------------
-------------------------
--------5----------5-----
--3--3-----4~---3-----4~-

Sunday, February 20, 2005

Tommorow is... BIG POST DAY!

Okay, here's a present for Silent Hill and Akira Yamaoka friends, tommorow i'll be posting these tabs from Akira Yamaoka:

- Angel's Thanatos
- Dog Ending (Guitar Adaptation)
- End of Small Sanctuary
- I Want Love (Studio MIX)
- Love Psalm
- Not Tommorow (Extended Version)
- Overdose Delusion
- Please Love Me... Once More
- Promise (Acoustic)
- Promise (Reprise)
- She
- Silent Hill
- Silent Hill (Other Side)
- Tears Of...
- Theme of Laura (Reprise)
- True (Guitar Adaptation)
- Waiting For You

And if i finish tabbing "Your Rain" i'll be posting that too... so be sure to comeback tommorow night!

Saturday, February 19, 2005

Tab Nr. 4 :: Akira Yamaoka (Silent Hill 4 OST) - Tender Sugar (requested by: DeadStar)

Artist: Akira Yamaoka
Song: Tender Sugar
Album: Silent Hill 4 OST

Requested by: DeadStar

Intro:
======
Let ring throughout.

(E5)
-----------------------------------------------------------------
-----------------------------------------------------------------
-----------------------------------------------------------------
---------2---------------2---------------2---------------2-------
-----2---------------2---------------2---------------2-----------
-0---------------0---------------0---------------0---------------

(Esus2)
-----------------------------------------------------------------
-----------------------------------------------------------------
-----------------------------------------------------------------
---------4---------------4---------------4---------------4-------
-----2---------------2---------------2---------------2-----------
-0---------------0---------------0---------------0---------------

(Em)
-----------------------------------------------------------------
-----------------------------------------------------------------
-----------------------------------------------------------------
---------5---------------5---------------5---------------5-------
-----2---------------2---------------2---------------2-----------
-0---------------0---------------0---------------0---------------

(Esus2)
-----------------------------------------------------------------
-----------------------------------------------------------------
-----------------------------------------------------------------
---------4---------------4---------------4---------------4-------
-----2---------------2---------------2---------------2-----------
-0---------------0---------------0---------------0---------------

Intro repeats, then continues behind the second guitar line:

-----------------------------0---3---------------------------0---
-----------------------------------------------------------------
-----------------------------------------------------------------
-----------------------------------------------------------------
-----------------------------------------------------------------
-----------------------------------------------------------------

-2---------------------------------------------------------------
-----------------------------------------------------------------
-----------------------------------------------------------------
-----------------------------------------------------------------
-----------------------------------------------------------------
-----------------------------------------------------------------

-----------------------------0-----------------------------------
-------------------------3-----------3---------------------------
---------------------0-------------------------------------------
-----------------------------------------------------------------
-----------------------------------------------------------------
-----------------------------------------------------------------

-----------------------------0-----------------------------------
-------------------------3-----------3---------------------------
---------------------0-------------------------------------------
-----------------------------------------------------------------
-----------------------------------------------------------------
----------------------------------------------------------------- x2
Next part:
==========
(Two guitars arranged for one.)

(Bsus)
---------------------------------2---------------0-------2-------
-------------------------------------------------------------2---
-----------------------------4-----------------------------------
-------------------------4---------------------------------------
-----------------------------------------------------------------
-----------------------------------------------------------------

(A5)
-----------------------------------------------------------------
-----------------------------------------------------------------
---------2---------------2---------------2---------------2-------
-----2---------------2---------------2---------------2-----------
-0---------------0---------------0---------------0---------------
----------------------------------------------------------------- x4

Then:

Bsus2
-2-------------------------------2-------------------------------
-2-------------------------------2-------------------------------
-4-------------------------------4-------------------------------
-----------------------------------------------------------------
-----------------------------------------------------------------
----------------------------------------------------------------- x4

Chorus:
=======
Em
-----------------------------------------------------------------
-----------------8\----------------------------------------------
-----------------9\----------------------------------------------
---------9-------9\----------------------------------------------
---------7-------------------------------------------------------
-0---------------------------------------------------------------

-----------------------------------------------------------------
-----------------------------------------------------------------
---------0---------------0---------------0---------------0-------
-0---------------0---------------0---------------0---------------
-----------------------------------------------------------------
----------------------------------------------------------------- x4

Then:
(C)
---------------------------------------------------------------------
---------------------------------------------------------------------
-----------------0-----------------------0-----------------------0---
-----2-----------------------2-----------------------2---------------
-3-----------3-----------3-----------3-----------3-----------3-------
---------------------------------------------------------------------

-----------------------------------------------
-----------------------------------------------
-----------------0-----------------------0-----
-----2-----------------------2-----------------
-3-----------3-----------3-----------3---------
-----------------------------------------------

(E5)
-----------------------------------------------------------------
-----------------------------------------------------------------
-----------------------------------------------------------------
---------2---------------2---------------2---------------2-------
-----2---------------2---------------2---------------2-----------
-0---------------0---------------0---------------0---------------
Play four times and repeat behind solo


Solo:
=====
I recommend listening to the song for the timing because I didn't spend a lot
of time on spacing here.
----------------------------------------------
----------------------------------------------
/11---12--9~----------------------------------
----------------------------------------------
----------------------------------------------
----------------------------------------------

---------------------------------------------
---------------------------------------------
-11---12--9~------11---12--9-11-12--9-11-12--
---------------------------------------------
---------------------------------------------
---------------------------------------------

----------------------------------------------
---------------12/15~-----15----------15/17~--
-12/16~---------------------------------------
----------------------------------------------
----------------------------------------------
----------------------------------------------

-------------------------------------
--17------17/20~--20-20-20\19-19-19\-
-------------------------------------
-------------------------------------
-------------------------------------
-------------------------------------

-----15---14---------15---14---------15---14-----
-/12---------12---12---------12---12---------12--
-------------------------------------------------
-------------------------------------------------
-------------------------------------------------
-------------------------------------------------

----15---14---------15---14-------14-15/17~----
-12---------12---12---------12-----------------
-----------------------------------------------
-----------------------------------------------
-----------------------------------------------
-----------------------------------------------

-17/19~---19-----19/22~------22/24~--24-24~----------------------
-----------------------------------------------------------------
-----------------------------------------------------------------
-----------------------------------------------------------------
-----------------------------------------------------------------

-0-0-0-0-0-0-0-0-0-0-0-0-0-0-0-0-0-0-0-0-0-0-0-0-0-0-0-0-0-0-0-0-
-7-7-7-8-8-5-7-7-7-8-8-5-7-8-5-7-7-7-7-8-8-5-7-7-7-8-8-5-7-8-5-7-
-----------------------------------------------------------------
-----------------------------------------------------------------
-----------------------------------------------------------------
-----------------------------------------------------------------

--0--0--0--0--0--0--0--0--0--0--0--0--0--0--0--0-
-15-15-15-12-12-12-15-15-15-12-12-12-15-15-12-12-
-------------------------------------------------
-------------------------------------------------
-------------------------------------------------
-------------------------------------------------

--0--0--0--0--0--0--0--0--0---------------------
-15-15-15-12-12-12-15-15-15-12-12-12-12-12-12-\-
----------------------------11-11-11-11-11-11---
------------------------------------------------
------------------------------------------------
------------------------------------------------

--0--0--0--0--0--0--0--0--0--0--0--0--0--0--0--0-
-20-20-20-22-22-22-20-20-20-22-22-22-20-20-22-22-------------------------------------------------
-------------------------------------------------
-------------------------------------------------
------------------------------------------------- x2 (slide down on the repeat)

----19------17------19------17------19------17--
-17------17------17------17------17------17-----
------------------------------------------------
------------------------------------------------
------------------------------------------------
------------------------------------------------

----19------17------19------17---19\--
-17------17------17------17-----------
--------------------------------------
--------------------------------------
--------------------------------------
--------------------------------------

Bsus2
-2-------------------------------2-------------------------------
-2-------------------------------2-------------------------------
-4-------------------------------4-------------------------------
-----------------------------------------------------------------
-----------------------------------------------------------------
----------------------------------------------------------------- x4

[Dramatic pause.]

Chorus:
=======
Em
-----------------------------------------------------------------
-----------------8\----------------------------------------------
-----------------9\----------------------------------------------
---------9-------9\----------------------------------------------
---------7-------------------------------------------------------
-0---------------------------------------------------------------

-----------------------------------------------------------------
-----------------------------------------------------------------
---------0---------------0---------------0---------------0-------
-0---------------0---------------0---------------0---------------
-----------------------------------------------------------------
----------------------------------------------------------------- x4

(C)
-----------------------------------------------------------------
-----------------------------------------------------------------
---------0---------------0---------------0---------------0-------
-----2---------------2---------------2---------------2-----------
-3---------------3---------------3---------------3---------------
----------------------------------------------------------------- x2

Outro:
======
Let ring throughout.
(E5)
-----------------------------------------------------------------
-----------------------------------------------------------------
-----------------------------------------------------------------
---------2---------------2---------------2---------------2-------
-----2---------------2---------------2---------------2-----------
-0---------------0---------------0---------------0---------------

(Esus2)
-----------------------------------------------------------------
-----------------------------------------------------------------
-----------------------------------------------------------------
---------4---------------4---------------4---------------4-------
-----2---------------2---------------2---------------2-----------
-0---------------0---------------0---------------0---------------

(Em)
-----------------------------------------------------------------
-----------------------------------------------------------------
-----------------------------------------------------------------
---------5---------------5---------------5---------------5-------
-----2---------------2---------------2---------------2-----------
-0---------------0---------------0---------------0---------------

(Esus2)
-----------------------------------------------------------------
-----------------------------------------------------------------
-----------------------------------------------------------------
---------4---------------4---------------4---------------4-------
-----2---------------2---------------2---------------2-----------
-0---------------0---------------0---------------0---------------

(E5)
-----------------------------------------------------------------
-----------------------------------------------------------------
-----------------------------------------------------------------
---------2---------------2---------------2---------------2-------
-----2---------------2---------------2---------------2-----------
-0---------------0---------------0---------------0---------------

(Esus2)
-----------------------------------------------------------------
-----------------------------------------------------------------
-----------------------------------------------------------------
---------4---------------4---------------4---------------4-------
-----2---------------2---------------2---------------2-----------
-0---------------0---------------0---------------0---------------

(Em)
-----------------------------------------------------------------
-----------------------------------------------------------------
-----------------------------------------------------------------
---------5---------------5---------------5---------------5-------
-----2---------------2---------------2---------------2-----------
-0---------------0---------------0---------------0---------------

(Esus2)
-----------------------------------------------------------------
-----------------------------------------------------------------
-----------------------------------------------------------------
---------4---------------4---------------4---------------4-------
-----2---------------2---------------2---------------2-----------
-0---------------0---------------0---------------0---------------

rit.
-----------------------------------------------------------------
-----------------------------------------------------------------
-----------------------------------------------------------------
-----------------------------------------------------------------
-2---------------------------------------------------------------
-----------------------------------------------------------------

Hope it's useful!

Saturday, February 12, 2005

Tab Nr. 3 :: Akira Yamaoka (Silent Hill 2 OST) - Theme of Laura (requested by: N/A)

Artist: Akira Yamaoka
Album: Silent Hill 2 OST
Song: Theme of Laura

Requested by: N/A

Intro:
----------------------
----------------------
-0--0--0--0----0--0-
-2--4--5--5p7-5--4- x 8
-3--5--7--7----7--5-
----------------------

Play this while Guitar 1 plays the intro through the 2-4 times:
-----------------------------------------------------------------------
-------------------------------------12--12--10-----12--10--12-----
----9--9--11--11--12--12--11--9----------------9------------------
-9---------------------------------------------------------------------
-----------------------------------------------------------------------
-----------------------------------------------------------------------


Play this while Guitar 1 plays the intro through the 4-8 times:
---------------------------------------------------------
---------------------------------------------------------
-------7p9----------------------------------------------
-------------9--7--9--5--4--5--9--7-------------12--9-
-5p7-----------------------------------7--7p10---------
----------------------------------------------------------

------------------------------------------------------
------------------------------------------------------
-------7p9-----------------------------7--7p9--7----
-------------9--7--9--5--4--5--9--7---------------9-
-5p7--------------------------------------------------
------------------------------------------------------

INTRO PT. 2
Then, the both guitars play this:
----2-----------
----0-----------
-0--0-----------
-2--2----------- x 3
-2--2--4--3--2-
-0--0-----------

The fourth time is played like this:
----2--------------
----0--------------
-0--0--------------
-2--2--------------
-2--2--4--3--2--3-
-0--0--------------

Guitar 1:
-----------------------------------
-----------------------------------
--------12-11--11--12--11--9----
-7p10---------------------------9-
-----------------------------------
-----------------------------------

Then guitar 2 plays:
----------------------
----------------------
----------------------
--------12--9--9p10-
-7p10---------------
----------------------

Then guitar 1 plays:
-----------------------------------------------------
-----------------------------------10--12-----------
--------12--11--11--12--11--9------------11--12-
-7p10-----------------------------------------------
-----------------------------------------------------
-----------------------------------------------------

Then guitar 2 plays:
----------------------
---------10--8--7----
-9--12-------------9-
----------------------
----------------------
----------------------

Then guitar 1 plays:
--------------------------
----------------8--10----
---------7--9----------9-
-7--10-------------------
--------------------------
--------------------------

Then guitar 2 plays:
------------------
-8--7--8--10-----
----------------9-
------------------
------------------
------------------


Then guitar 1 plays:
--------------------------
----------------8--10----
---------7--9----------9-
-7--10-------------------
--------------------------
--------------------------

Then guitar 2 plays:
----------------
-8--7--8--8----
--------------9-
----------------
----------------
----------------

Then guitar 1 plays:
--------------------------
----------------8--10----
---------7--9----------9-
-7--10-------------------
--------------------------
--------------------------

Then guitar 2 plays:
----------------------------------------------------------------------
-8--7--8--7--8--12--7--8--10--12--12--12--12--12--12--12--12-
----------------------------------------------------------------------
----------------------------------------------------------------------
----------------------------------------------------------------------
----------------------------------------------------------------------

Then guitar 1 plays: (A)
------------------------------------------------------------
------------------------------------------------------------
-12--12--12--11--11--12--12p14--9---------11-----9~--
-----------------------------------------9--9-------9------
------------------------------------------------------------
------------------------------------------------------------

Then guitar 2 plays: (B)
---------------------------------------------------
---------------------------------------------------
-12--11--12-------12--11--9-----9--8--6--8--9-
---------------12---------------9-----------------
---------------------------------------------------
---------------------------------------------------

(PLAY THE (A) AND (B) RIFFS 4 TIMES)

Then guitar 2 plays:
------------------------------
------------------------------
-9--11--12--14--12--11--9-
------------------------------
------------------------------
------------------------------

(THEN, PLAY THE INTRO AND INTRO PT. 2)

-- END --

Hope this is useful!

Tab Nr. 2 :: Akira Yamaoka (Silent Hill 3 OST) - You're Not Here (requested by: Myself lol)

Artist: Akira Yamaoka
Album: Silent Hill 3 OST
Song: You're Not Here
Lyrics by: Nora Stevens Heath

Requested by: No one... I just thought it could be useful!

Tuning: eb Bb Gb Db Ab Eb

Main Riff
eb---------------------------------------------
Bb---------------------------------------------
Gb---------------------------------------------
Db-----0-------0-------0-------0---------------
Ab---7---7---7---7---7---7---7---7-------------
Eb-5-------5-------5-------5-------5-----------

eb---------------------------------------------
Bb---------------------------------------------
Gb---------------------------------------------
Db------0---------0---------0---------0--------
Ab---10---10---10---10---10---10---10---10-----
Eb-8---------8---------8---------8---------8---

Lead fill 1 (repeat over intro)
eb----------------------------------12-----------------------------------
Bb-------------------------------------12~-------------------------------
Gb----12~----------------------------------------------------------------
Db-12--------------------------------------------------------------------
Ab-----------------------------------------------------------------------
Eb-----------------------------------------------------------------------

Lead fill 2 (0:14)
eb-----------------------------------------------------------------------
Bb-----------------------------------------------------------------------
Gb-----------------------------------------------------------------------
Db-----------------------------------------------------------------------
Ab------------------------7---------10--------------12------7----10------
Eb--------------5----8---------------------------------------------------

eb-----------------------------------------------------------------------
Bb-----------------------------------------------------------------------
Gb-----------------------------------------------------------------------
Db-----------------------------------------------------------------------
Ab------------------------7---------10-----------------------------------
Eb-5------------5----8-----------------------3-------5-------3------------

=====
For the verse, play the main riff above.
Plus this lead bit at 0:42 (with delay effects)
eb-----------0--------------------------------0-----------------------
Bb------1-------------------------------1-----------------------------
Gb-2-----------------------------0------------------------------------
Db--------------------------------------------------------------------
Ab--------------------------------------------------------------------
Eb--------------------------------------------------------------------

eb----------------------------------12-----12-----12----12----12-----
Bb---13----15----13--13----------13-----13-----13----13----13----13--
Gb-14----------------------------------------------------------------
Db-------------------------------------------------------------------
Ab-------------------------------------------------------------------
Eb-------------------------------------------------------------------

pre-chorus bit
GUITAR ONE
eb---------------------------------------------------------------------
Bb---------------------------------------------------------------------
Gb-7----------------5----------------7----------------5----------------
Db-7----------------5----------------7----------------5----------------
Ab-5----------------3----------------5----------------3----------------
Eb---------------------------------------------------------------------

eb---------------------------------------------------------------------
Bb---------------------------------------------------------------------
Gb-----------------------------9----------------------------------9----
Db------------------10-----------10-------------------10------------10-
Ab-----------10-12-----------------------------10-12-------------------
Eb---10-12-13--------------------------10-12-13------------------------

eb---------------------------------------------------------------------
Bb---------------------------------------------------------------------
Gb-7----------------5----------------4------------------------4.--4.---
Db-7----------------5----------------4------------------------4.--4.---
Ab-5----------------3----------------2------------------------2.--2.---
Eb---------------------------------------------------------------------

eb---------------------------------------------------------------------
Bb---------------------------------------------------------------------
Gb-----------------------------9---------------------------------------
Db------------------10-----------10--9------------------------9.--9.---
Ab-----------10-12--------------------------------------------9.--9.---
Eb---10-12-13----------------------------------------------------------

GUITAR TWO
Chorus (if you can call it that)

GUITAR ONE
Amin G F G Amin G F Emin
eb-----0-------3---------------3--------0-------3-------------------
Bb---1---1---0---0-----1-----0---0----1---1---0---0-----1-------0---
Gb-2-------0---------2-----0--------2-------0---------2-------0---0-
Db-----------------3-----3--------------------------3-----3-2-------
Ab------------------------------------------------------------------
Eb------------------------------------------------------------------

eb------------------------------------------------------------------
Bb------------------------------------------------------------------
Gb------------------------------------------------------------------
Db-7~------9~------10~---12~--------7~------------------------------
Ab------------------------------------------------------------------
Eb------------------------------------------------------------------

GUITAR TWO (weird delay and flange effects)
eb-0-
Bb-0-
Gb-0-
Db-2-
Ab-2-
Eb-0-

at 1:43 go back to the main riff

SOLO: (2:02)
(w/effects)
eb----------------------------------------------------------------
Bb-x-8--8--8--8---10-----------------10--10----8-8-8--8-----------
Gb-x-7--7--7--7---9------------------9---9-----7-7-7--7-----------
Db----------------------------------------------------------------
Ab----------------------------------------------------------------
Eb----------------------------------------------------------------

eb----------------------------------------------------------------
Bb-8--8--10-10-10--10-------------10--10----8--8--8-8--8----------
Gb-7--7--9--9--9---9--------------9---9-----7--7--7-7--7--/-------
Db----------------------------------------------------------------
Ab----------------------------------------------------------------
Eb----------------------------------------------------------------

eb-12-12-12-10-10-10-12-10-12-12-12-12-12-12-12-12-10-
Bb-10-10-10-10-10-10-10-10-10-10-10-10-10-10-10-10-10-
Gb----------------------------------------------------
Db----------------------------------------------------
Ab----------------------------------------------------
Eb----------------------------------------------------

(that bit isn't accurate, strum it how you think it sounds right)
THEN
eb-/--------------------------------------------------------
Bb----------------------------------------------------------
Gb----9---10---7---9---5---9/10---12---12-10---10-9---------
Db----------------------------------------------------------
Ab----------------------------------------------------------
Eb----------------------------------------------------------

eb---------------------------------------------/------
Bb----------------------------------------------------
Gb-9---10---7---9-------9/10---12---10---9------------
Db----------------------------------------------------
Ab----------------------------------------------------
Eb----------------------------------------------------

repeat this thing for a bit:
eb-12-12-12-10-10-10-12-10-12-12-12-12-12-12-12-12-10-
Bb-10-10-10-10-10-10-10-10-10-10-10-10-10-10-10-10-10-

then:
eb8-8-8-8-8-8-8-8-8-8-8-8-8-8-8-8-7-7-7-7-7-7-7-7-10-10-10-10-10-10-10-10-
Bb8-8-8-8-8-8-8-8-8-8-8-8-8-8-8-8-8-8-8-8-8-8-8-8-8--8--8--8--8--8--8--8--
Gb------------------------------------------------------------------------
Db------------------------------------------------------------------------
Ab------------------------------------------------------------------------
Eb------------------------------------------------------------------------

eb-17-17-17-17-17-17-17-17-17-17-17-17-17-17-17-17-
Bb-17-17-17-17-17-17-17-17-17-17-17-17-17-17-17-17-
Gb-------------------------------------------------
Db-------------------------------------------------
Ab-------------------------------------------------
Eb-------------------------------------------------

eb-19-19-19-19-19-19-21-21-21-21-21-21-21\-----
Bb-17-17-17-17-17-17-17-17-17-17-17-17-17------
Gb---------------------------------------------
Db---------------------------------------------
Ab---------------------------------------------
Eb---------------------------------------------

eb-----------------------------------------------------------------
Bb-8--10-10--10-10------------10----10------8-8-x-8-8-x-8-------8--
Gb-7--9--9---9--9-------------9-----9-------7-7-x-7-7-x-7-------7--
Db-----------------------------------------------------------------
Ab-----------------------------------------------------------------
Eb-----------------------------------------------------------------

repeat, then
eb----------------------------------------------------
Bb----------------------------------------------------
Gb-9---10---7---9-------9/10---12---10---9------------
Db----------------------------------------------------
Ab----------------------------------------------------
Eb----------------------------------------------------
repeat until fade...

Hope it is useful! Stay nice!